0
SECTION
2
HEADER
9
$INSUNITS
70
4
9
$ACADVER
1
AC1014
9
$HANDSEED
5
FFFF
0
ENDSEC
0
SECTION
2
TABLES
0
TABLE
2
VPORT
5
8
100
AcDbSymbolTable
0
ENDTAB
0
TABLE
2
LTYPE
5
5
100
AcDbSymbolTable
0
LTYPE
5
14
100
AcDbSymbolTableRecord
100
AcDbLinetypeTableRecord
2
BYBLOCK
70
0
0
LTYPE
5
15
100
AcDbSymbolTableRecord
100
AcDbLinetypeTableRecord
2
BYLAYER
70
0
0
ENDTAB
0
TABLE
2
LAYER
5
2
100
AcDbSymbolTable
70
2
0
LAYER
5
50
100
AcDbSymbolTableRecord
100
AcDbLayerTableRecord
2
0
70
0
6
CONTINUOUS
0
ENDTAB
0
TABLE
2
STYLE
5
3
100
AcDbSymbolTable
70
1
0
STYLE
5
11
100
AcDbSymbolTableRecord
100
AcDbTextStyleTableRecord
2
STANDARD
70
0
0
ENDTAB
0
TABLE
2
VIEW
5
6
100
AcDbSymbolTable
70
0
0
ENDTAB
0
TABLE
2
UCS
5
7
100
AcDbSymbolTable
70
0
0
ENDTAB
0
TABLE
2
APPID
5
9
100
AcDbSymbolTable
70
2
0
APPID
5
12
100
AcDbSymbolTableRecord
100
AcDbRegAppTableRecord
2
ACAD
70
0
0
ENDTAB
0
TABLE
2
DIMSTYLE
5
A
100
AcDbSymbolTable
70
1
0
ENDTAB
0
TABLE
2
BLOCK_RECORD
5
1
100
AcDbSymbolTable
70
1
0
BLOCK_RECORD
5
1F
100
AcDbSymbolTableRecord
100
AcDbBlockTableRecord
2
*MODEL_SPACE
0
BLOCK_RECORD
5
1B
100
AcDbSymbolTableRecord
100
AcDbBlockTableRecord
2
*PAPER_SPACE
0
ENDTAB
0
ENDSEC
0
SECTION
2
BLOCKS
0
BLOCK
5
20
100
AcDbEntity
100
AcDbBlockBegin
2
*MODEL_SPACE
0
ENDBLK
5
21
100
AcDbEntity
100
AcDbBlockEnd
0
BLOCK
5
1C
100
AcDbEntity
100
AcDbBlockBegin
2
*PAPER_SPACE
0
ENDBLK
5
1D
100
AcDbEntity
100
AcDbBlockEnd
0
ENDSEC
0
SECTION
2
ENTITIES
0
LWPOLYLINE
5
100
100
AcDbEntity
8
0
100
AcDbPolyline
90
40
70
1
43
0.0
10
2.5
20
-2.9999999999999994e-16
10
246.18700000000013
20
1.0061396160665481e-14
42
-0.41421356237310597
10
246.68700000000007
20
-0.49999999999998018
10
246.68700000000007
20
-1.2250000000000201
42
0.41421356237311324
10
247.18700000000007
20
-1.7250000000000321
10
286.01299999999992
20
-1.7250000000000338
42
0.41421356237306989
10
286.51299999999992
20
-1.2250000000001051
10
286.51300000000015
20
-0.49999999999998218
42
-0.41421356237307644
10
287.01300000000009
20
-6.3886012833343249e-14
10
302.30000000000013
20
-3.4139358007223564e-14
42
-0.41421356237310353
10
304.80000000000013
20
-2.5000000000000355
10
304.80000000000013
20
-92.750000000000043
42
-0.41421356237310542
10
302.30000000000013
20
-95.250000000000043
10
250.14981562601602
20
-95.25
42
-0.41421356237308254
10
247.64981562601608
20
-92.750000000000043
10
247.64981562601602
20
-75.700000000000045
42
0.41421356237301699
10
247.14981562601599
20
-75.200000000000031
10
238.62481562601602
20
-75.20000000000006
42
0.41421356237312101
10
238.12481562601607
20
-75.700000000000045
10
238.12481562601607
20
-92.750000000000043
42
-0.41421356237310125
10
235.62481562601607
20
-95.250000000000028
10
189.35625000000002
20
-95.250000000000043
42
-0.41421356237306384
10
188.85624999999999
20
-94.750000000000057
10
188.85624999999999
20
-93.225000000000037
42
0.41421356237307422
10
188.35624999999996
20
-92.725000000000065
10
173.59375000000003
20
-92.725000000000023
42
0.41421356237309503
10
173.09375000000003
20
-93.225000000000037
10
173.09375000000003
20
-94.750000000000057
42
-0.41421356237312623
10
172.59375000000009
20
-95.250000000000028
10
94.223539094704236
20
-95.249999999999986
42
-0.41421356237309503
10
93.723539094704222
20
-94.749999999999972
10
93.723539094704222
20
-93.224999999999994
42
0.41421356237307422
10
93.223539094704222
20
-92.724999999999994
10
73.470003679627553
20
-92.724999999999994
42
0.41421356237307422
10
72.970003679627538
20
-93.224999999999994
10
72.970003679627538
20
-94.749999999999972
42
-0.41421356237305862
10
72.470003679627538
20
-95.249999999999986
10
2.4999999999999893
20
-95.249999999999986
42
-0.41421356237308976
10
-2.3600000000000002e-14
20
-92.75
10
-2.7755575615628914e-16
20
-2.5
42
-0.41421356237309509
0
LWPOLYLINE
5
101
100
AcDbEntity
8
0
100
AcDbPolyline
90
12
70
1
43
0.0
10
149.87499999999994
20
-79.22499999999998
10
149.87499999999991
20
-92.224999999999994
42
-0.41421356237309503
10
149.37499999999994
20
-92.724999999999994
10
137.46875
20
-92.724999999999994
10
136.375
20
-92.724999999999994
10
124.46874999999991
20
-92.725000000000009
42
-0.41421356237309503
10
123.96874999999991
20
-92.224999999999994
10
123.96874999999991
20
-79.22499999999998
42
-0.41421356237309503
10
124.46874999999991
20
-78.724999999999994
10
136.375
20
-78.724999999999994
10
137.46875
20
-78.724999999999994
10
149.37499999999994
20
-78.72499999999998
42
-0.41421356237309503
0
LWPOLYLINE
5
102
100
AcDbEntity
8
0
100
AcDbPolyline
90
8
70
1
43
0.0
10
135.08750000000001
20
-73.674999999999983
10
122.08749999999992
20
-73.674999999999898
42
-0.41421356237309503
10
121.58750000000001
20
-73.174999999999983
10
121.58749999999991
20
-60.174999999999983
42
-0.41421356237309503
10
122.08749999999992
20
-59.674999999999983
10
135.08750000000001
20
-59.675000000000097
42
-0.41421356237309503
10
135.58749999999989
20
-60.174999999999983
10
135.58750000000001
20
-73.174999999999983
42
-0.41421356237309503
0
LWPOLYLINE
5
103
100
AcDbEntity
8
0
100
AcDbPolyline
90
8
70
1
43
0.0
10
168.42500000000001
20
-16.525000000000002
10
155.42500000000001
20
-16.525000000000006
42
-0.41421356237309503
10
154.92500000000001
20
-16.024999999999999
10
154.92500000000001
20
-3.0250000000000048
42
-0.41421356237309503
10
155.42500000000001
20
-2.5250000000000048
10
168.42500000000001
20
-2.5249999999999977
42
-0.41421356237309503
10
168.92500000000001
20
-3.0250000000000044
10
168.92500000000001
20
-16.024999999999999
42
-0.41421356237309503
0
LWPOLYLINE
5
104
100
AcDbEntity
8
0
100
AcDbPolyline
90
8
70
1
43
0.0
10
83.487499999999983
20
-60.174999999999983
42
-0.41421356237309503
10
83.987499999999983
20
-59.674999999999983
10
96.987499999999983
20
-59.674999999999976
42
-0.41421356237309503
10
97.487499999999997
20
-60.174999999999983
10
97.487499999999983
20
-73.174999999999983
42
-0.41421356237309503
10
96.987499999999983
20
-73.674999999999983
10
83.987499999999983
20
-73.674999999999997
42
-0.41421356237309503
10
83.487499999999969
20
-73.174999999999983
0
LWPOLYLINE
5
105
100
AcDbEntity
8
0
100
AcDbPolyline
90
10
70
1
43
0.0
10
83.968749999999972
20
-77.72499999999998
10
88.724999999999966
20
-77.724999999999966
42
-0.41421356237309503
10
89.22499999999998
20
-78.22499999999998
10
89.224999999999966
20
-91.225000000000009
42
-0.41421356237309503
10
88.724999999999966
20
-91.724999999999994
10
77.968749999999972
20
-91.724999999999994
42
-0.41421356237309503
10
77.468749999999972
20
-91.225000000000009
10
77.468749999999972
20
-78.22499999999998
42
-0.41421356237309503
10
77.968749999999972
20
-77.72499999999998
10
82.724999999999966
20
-77.72499999999998
0
LWPOLYLINE
5
106
100
AcDbEntity
8
0
100
AcDbPolyline
90
8
70
1
43
0.0
10
116.03749999999991
20
-73.674999999999983
10
103.03749999999992
20
-73.674999999999997
42
-0.41421356237309503
10
102.53749999999991
20
-73.174999999999983
10
102.53749999999994
20
-60.174999999999983
42
-0.41421356237309503
10
103.03749999999992
20
-59.674999999999983
10
116.03749999999991
20
-59.674999999999976
42
-0.41421356237309503
10
116.53749999999991
20
-60.174999999999983
10
116.53749999999991
20
-73.174999999999983
42
-0.41421356237309503
0
LWPOLYLINE
5
107
100
AcDbEntity
8
0
100
AcDbPolyline
90
16
70
1
43
0.0
10
196.52500000000001
20
-78.22499999999998
42
-0.41421356237309503
10
197.02500000000001
20
-77.72499999999998
10
203.02500000000003
20
-77.724999999999966
42
-0.41421356237309503
10
203.52500000000003
20
-78.22499999999998
10
203.52500000000003
20
-78.724999999999994
10
208.90625
20
-78.72499999999998
42
-0.41421356237309503
10
209.40625
20
-79.22499999999998
10
209.40625
20
-92.224999999999994
42
-0.41421356237309503
10
208.90625
20
-92.725000000000009
10
203.02500000000003
20
-92.724999999999994
10
197.02500000000001
20
-92.724999999999994
10
195.90624999999991
20
-92.725000000000009
42
-0.41421356237309503
10
195.40624999999991
20
-92.224999999999994
10
195.40624999999991
20
-79.22499999999998
42
-0.41421356237309503
10
195.90624999999991
20
-78.724999999999994
10
196.52499999999992
20
-78.724999999999994
0
LWPOLYLINE
5
108
100
AcDbEntity
8
0
100
AcDbPolyline
90
8
70
1
43
0.0
10
231.625
20
-2.5250000000000048
10
244.62500000000003
20
-2.5249999999999977
42
-0.41421356237309503
10
245.12500000000003
20
-3.0250000000000044
10
245.12500000000003
20
-16.024999999999999
42
-0.41421356237309503
10
244.62500000000003
20
-16.525000000000002
10
231.625
20
-16.525000000000006
42
-0.41421356237309503
10
231.125
20
-16.024999999999999
10
231.125
20
-3.0250000000000048
42
-0.41421356237309503
0
LWPOLYLINE
5
109
100
AcDbEntity
8
0
100
AcDbPolyline
90
8
70
1
43
0.0
10
177.96874999999994
20
-91.725000000000009
42
-0.41421356237309503
10
177.46874999999991
20
-91.225000000000009
10
177.46874999999991
20
-78.22499999999998
42
-0.41421356237309503
10
177.96874999999994
20
-77.72499999999998
10
183.96874999999991
20
-77.724999999999966
42
-0.41421356237309503
10
184.46874999999991
20
-78.22499999999998
10
184.46874999999991
20
-91.225000000000009
42
-0.41421356237309503
10
183.96874999999991
20
-91.724999999999994
0
LWPOLYLINE
5
110
100
AcDbEntity
8
0
100
AcDbPolyline
90
8
70
1
43
0.0
10
93.512499999999989
20
-54.624999999999979
42
-0.41421356237309503
10
93.012500000000017
20
-54.125000000000007
10
93.012499999999989
20
-41.125
42
-0.41421356237309503
10
93.512499999999989
20
-40.625
10
106.51250000000002
20
-40.624999999999993
42
-0.41421356237309503
10
107.01250000000002
20
-41.125
10
107.01250000000002
20
-54.125000000000007
42
-0.41421356237309503
10
106.51250000000002
20
-54.625
0
LWPOLYLINE
5
111
100
AcDbEntity
8
0
100
AcDbPolyline
90
8
70
1
43
0.0
10
82.699999999999974
20
-21.575000000000017
42
-0.41421356237309503
10
83.199999999999989
20
-22.075000000000024
10
83.19999999999996
20
-35.075000000000017
42
-0.41421356237309503
10
82.699999999999974
20
-35.575000000000017
10
69.699999999999974
20
-35.57500000000001
42
-0.41421356237309503
10
69.199999999999989
20
-35.075000000000017
10
69.199999999999989
20
-22.075000000000024
42
-0.41421356237309503
10
69.699999999999974
20
-21.575000000000021
0
LWPOLYLINE
5
112
100
AcDbEntity
8
0
100
AcDbPolyline
90
8
70
1
43
0.0
10
241.15000000000003
20
-21.575000000000024
10
254.15000000000003
20
-21.575000000000017
42
-0.41421356237309503
10
254.65000000000003
20
-22.075000000000024
10
254.65000000000003
20
-35.075000000000017
42
-0.41421356237309503
10
254.15000000000003
20
-35.575000000000031
10
241.15000000000003
20
-35.575000000000031
42
-0.41421356237309503
10
240.65000000000001
20
-35.075000000000017
10
240.65000000000001
20
-22.075000000000024
42
-0.41421356237309503
0
LWPOLYLINE
5
113
100
AcDbEntity
8
0
100
AcDbPolyline
90
8
70
1
43
0.0
10
87.962499999999977
20
-54.125000000000007
42
-0.41421356237309503
10
87.462499999999977
20
-54.625
10
74.462499999999977
20
-54.625
42
-0.41421356237309503
10
73.962499999999977
20
-54.125000000000007
10
73.962499999999977
20
-41.125
42
-0.41421356237309503
10
74.462499999999977
20
-40.625
10
87.462499999999977
20
-40.624999999999993
42
-0.41421356237309503
10
87.962499999999991
20
-41.125
0
LWPOLYLINE
5
114
100
AcDbEntity
8
0
100
AcDbPolyline
90
8
70
1
43
0.0
10
79.224999999999966
20
-2.5250000000000048
10
92.224999999999966
20
-2.5249999999999977
42
-0.4142135623730947
10
92.724999999999966
20
-3.0250000000000044
10
92.724999999999966
20
-16.024999999999999
42
-0.41421356237309503
10
92.224999999999966
20
-16.525000000000002
10
79.224999999999966
20
-16.525000000000006
42
-0.41421356237309503
10
78.724999999999952
20
-16.024999999999999
10
78.724999999999966
20
-3.0250000000000048
42
-0.41421356237309503
0
LWPOLYLINE
5
115
100
AcDbEntity
8
0
100
AcDbPolyline
90
8
70
1
43
0.0
10
125.56249999999991
20
-54.625
10
112.56249999999991
20
-54.625000000000014
42
-0.41421356237309503
10
112.0624999999999
20
-54.125000000000007
10
112.0624999999999
20
-41.125
42
-0.41421356237309503
10
112.56249999999991
20
-40.625
10
125.56249999999991
20
-40.624999999999993
42
-0.41421356237309503
10
126.06249999999991
20
-41.125
10
126.06249999999991
20
-54.125000000000007
42
-0.41421356237309503
0
LWPOLYLINE
5
116
100
AcDbEntity
8
0
100
AcDbPolyline
90
8
70
1
43
0.0
10
288.27499999999998
20
-54.125000000000007
10
288.27499999999998
20
-41.125
42
-0.41421356237309503
10
288.77499999999998
20
-40.625
10
301.77499999999998
20
-40.624999999999993
42
-0.41421356237309503
10
302.27499999999998
20
-41.125
10
302.27499999999998
20
-54.125000000000007
42
-0.41421356237309503
10
301.77499999999998
20
-54.625
10
288.77499999999998
20
-54.625000000000014
42
-0.41421356237309503
0
LWPOLYLINE
5
117
100
AcDbEntity
8
0
100
AcDbPolyline
90
8
70
1
43
0.0
10
240.36250000000001
20
-41.125
10
240.36250000000001
20
-54.125000000000007
42
-0.41421356237309503
10
239.86250000000001
20
-54.625
10
226.86250000000001
20
-54.624999999999979
42
-0.41421356237309503
10
226.36250000000004
20
-54.125000000000007
10
226.36250000000001
20
-41.125
42
-0.41421356237309503
10
226.86250000000001
20
-40.625
10
239.86250000000001
20
-40.624999999999993
42
-0.41421356237309503
0
LWPOLYLINE
5
118
100
AcDbEntity
8
0
100
AcDbPolyline
90
8
70
1
43
0.0
10
131.1124999999999
20
-54.125000000000007
10
131.1124999999999
20
-41.125
42
-0.41421356237309503
10
131.6124999999999
20
-40.625
10
144.61250000000001
20
-40.624999999999993
42
-0.41421356237309503
10
145.11250000000001
20
-41.125
10
145.11250000000001
20
-54.125000000000007
42
-0.41421356237309503
10
144.61250000000001
20
-54.625
10
131.6124999999999
20
-54.625000000000014
42
-0.41421356237309503
0
LWPOLYLINE
5
119
100
AcDbEntity
8
0
100
AcDbPolyline
90
8
70
1
43
0.0
10
160.18749999999994
20
-73.674999999999997
42
-0.41421356237309503
10
159.68749999999994
20
-73.174999999999983
10
159.68749999999994
20
-60.174999999999983
42
-0.41421356237309503
10
160.18749999999994
20
-59.674999999999983
10
173.1875
20
-59.674999999999976
42
-0.41421356237309503
10
173.68750000000003
20
-60.174999999999983
10
173.68750000000003
20
-73.174999999999983
42
-0.41421356237309503
10
173.1875
20
-73.674999999999983
0
LWPOLYLINE
5
120
100
AcDbEntity
8
0
100
AcDbPolyline
90
8
70
1
43
0.0
10
154.6374999999999
20
-73.174999999999983
42
-0.41421356237309503
10
154.1374999999999
20
-73.674999999999983
10
141.1374999999999
20
-73.674999999999997
42
-0.41421356237309503
10
140.6374999999999
20
-73.174999999999983
10
140.63749999999993
20
-60.174999999999983
42
-0.41421356237309503
10
141.1374999999999
20
-59.674999999999983
10
154.1374999999999
20
-59.674999999999976
42
-0.41421356237309503
10
154.63749999999993
20
-60.174999999999983
0
LWPOLYLINE
5
121
100
AcDbEntity
8
0
100
AcDbPolyline
90
8
70
1
43
0.0
10
243.53125000000003
20
-73.674999999999997
42
-0.41421356237309503
10
243.03125
20
-73.174999999999983
10
243.03125
20
-60.174999999999983
42
-0.41421356237309503
10
243.53125000000003
20
-59.674999999999983
10
256.53125
20
-59.675000000000011
42
-0.41421356237309503
10
257.03125
20
-60.174999999999983
10
257.03125000000006
20
-73.174999999999983
42
-0.41421356237309503
10
256.53125
20
-73.674999999999983
0
LWPOLYLINE
5
122
100
AcDbEntity
8
0
100
AcDbPolyline
90
8
70
1
43
0.0
10
49.862499999999983
20
-41.125
10
49.862499999999983
20
-54.125000000000007
42
-0.41421356237309503
10
49.362499999999983
20
-54.625
10
36.36249999999999
20
-54.625
42
-0.41421356237309503
10
35.86249999999999
20
-54.125000000000007
10
35.86249999999999
20
-41.125
42
-0.41421356237309503
10
36.36249999999999
20
-40.625
10
49.362499999999983
20
-40.625
42
-0.41421356237309503
0
LWPOLYLINE
5
123
100
AcDbEntity
8
0
100
AcDbPolyline
90
8
70
1
43
0.0
10
282.72500000000002
20
-73.674999999999983
10
269.72500000000002
20
-73.674999999999997
42
-0.41421356237309503
10
269.22500000000002
20
-73.174999999999983
10
269.22500000000002
20
-60.174999999999983
42
-0.41421356237309503
10
269.72500000000002
20
-59.674999999999983
10
282.72500000000002
20
-59.674999999999976
42
-0.41421356237309503
10
283.22500000000002
20
-60.174999999999983
10
283.22500000000002
20
-73.174999999999983
42
-0.41421356237309503
0
LWPOLYLINE
5
124
100
AcDbEntity
8
0
100
AcDbPolyline
90
8
70
1
43
0.0
10
41.124999999999979
20
-2.5250000000000048
10
54.124999999999979
20
-2.5250000000000066
42
-0.41421356237309503
10
54.624999999999979
20
-3.0250000000000044
10
54.624999999999979
20
-16.024999999999999
42
-0.41421356237309503
10
54.124999999999979
20
-16.525000000000002
10
41.124999999999979
20
-16.524999999999991
42
-0.41421356237309503
10
40.624999999999993
20
-16.024999999999999
10
40.624999999999986
20
-3.0250000000000048
42
-0.41421356237309503
0
LWPOLYLINE
5
125
100
AcDbEntity
8
0
100
AcDbPolyline
90
8
70
1
43
0.0
10
202.26249999999999
20
-41.125
10
202.26249999999999
20
-54.125000000000007
42
-0.41421356237309503
10
201.76249999999999
20
-54.625
10
188.76249999999996
20
-54.625000000000014
42
-0.41421356237309503
10
188.26249999999993
20
-54.125000000000007
10
188.26249999999993
20
-41.125
42
-0.41421356237309503
10
188.76249999999996
20
-40.625
10
201.76249999999999
20
-40.624999999999993
42
-0.41421356237309503
0
LWPOLYLINE
5
126
100
AcDbEntity
8
0
100
AcDbPolyline
90
8
70
1
43
0.0
10
282.72500000000002
20
-92.725000000000009
10
269.72500000000002
20
-92.725000000000009
42
-0.41421356237309503
10
269.22500000000002
20
-92.224999999999994
10
269.22500000000002
20
-79.22499999999998
42
-0.41421356237309503
10
269.72500000000002
20
-78.724999999999994
10
282.72500000000002
20
-78.72499999999998
42
-0.41421356237309503
10
283.22500000000002
20
-79.22499999999998
10
283.22500000000002
20
-92.224999999999994
42
-0.41421356237309503
0
LWPOLYLINE
5
127
100
AcDbEntity
8
0
100
AcDbPolyline
90
8
70
1
43
0.0
10
64.437499999999972
20
-60.174999999999983
42
-0.41421356237309503
10
64.937499999999972
20
-59.674999999999983
10
77.937499999999972
20
-59.674999999999983
42
-0.41421356237309503
10
78.437499999999972
20
-60.174999999999983
10
78.437499999999972
20
-73.174999999999983
42
-0.41421356237309503
10
77.937499999999972
20
-73.674999999999983
10
64.937499999999972
20
-73.674999999999983
42
-0.41421356237309503
10
64.437499999999972
20
-73.174999999999983
0
LWPOLYLINE
5
128
100
AcDbEntity
8
0
100
AcDbPolyline
90
50
70
1
43
0.0
10
245.91250000000002
20
-40.625
10
248.88075000000001
20
-40.625
10
248.88075000000001
20
-40.125
42
-0.41421356237309503
10
249.38075000000001
20
-39.625
10
255.38075000000003
20
-39.624999999999993
42
-0.41421356237309503
10
255.88075000000003
20
-40.125
10
255.88075000000003
20
-40.625
10
257.81875000000002
20
-40.625
10
258.91250000000002
20
-40.625
10
266.84375
20
-40.625
10
266.84375
20
-35.575000000000031
10
264.96249999999998
20
-35.575000000000031
42
-0.41421356237309503
10
264.46249999999998
20
-35.075000000000017
10
264.46249999999998
20
-22.075000000000024
42
-0.41421356237309503
10
264.96249999999998
20
-21.575000000000021
10
277.96249999999998
20
-21.575000000000017
42
-0.41421356237309503
10
278.46250000000003
20
-22.075000000000024
10
278.46249999999998
20
-22.66200000000001
10
280.34375
20
-22.662000000000006
42
-0.41421356237309503
10
280.84375
20
-23.162000000000013
10
280.84375
20
-29.162000000000013
42
-0.41421356237309503
10
280.34375
20
-29.66200000000001
10
278.46249999999998
20
-29.662000000000003
10
278.46249999999998
20
-31.099999999999994
10
280.34375
20
-31.099999999999994
42
-0.41421356237309503
10
280.84375
20
-31.600000000000001
10
280.84375
20
-44.599999999999994
42
-0.41421356237309503
10
280.34375
20
-45.099999999999987
10
279.75675000000001
20
-45.099999999999987
10
279.75675000000001
20
-46.538000000000011
10
280.34375
20
-46.538000000000004
42
-0.41421356237309503
10
280.84375
20
-47.038000000000011
10
280.84375
20
-53.038000000000018
42
-0.41421356237309503
10
280.34375
20
-53.538000000000011
10
279.75675000000001
20
-53.538000000000011
10
279.75675000000001
20
-54.125000000000007
42
-0.41421356237309503
10
279.25675000000001
20
-54.625
10
273.25675000000001
20
-54.625000000000014
42
-0.41421356237309503
10
272.75675000000001
20
-54.125000000000007
10
272.75675000000001
20
-53.538000000000011
10
271.31875000000002
20
-53.538000000000011
10
271.31875000000002
20
-54.125000000000007
42
-0.41421356237309503
10
270.81875000000002
20
-54.625
10
258.91250000000002
20
-54.625
10
257.81875000000002
20
-54.625
10
255.38075000000003
20
-54.625
10
249.38075000000001
20
-54.625
10
245.91250000000002
20
-54.625000000000014
42
-0.41421356237309503
10
245.41250000000002
20
-54.125000000000007
10
245.41250000000002
20
-41.125
42
-0.41421356237309503
0
LWPOLYLINE
5
129
100
AcDbEntity
8
0
100
AcDbPolyline
90
8
70
1
43
0.0
10
158.89999999999989
20
-35.575000000000031
10
145.90000000000001
20
-35.575000000000031
42
-0.41421356237309503
10
145.40000000000001
20
-35.075000000000017
10
145.40000000000003
20
-22.075000000000024
42
-0.41421356237309503
10
145.90000000000001
20
-21.575000000000024
10
158.89999999999989
20
-21.575000000000017
42
-0.41421356237309503
10
159.39999999999992
20
-22.075000000000024
10
159.39999999999992
20
-35.075000000000017
42
-0.41421356237309503
0
LWPOLYLINE
5
130
100
AcDbEntity
8
0
100
AcDbPolyline
90
8
70
1
43
0.0
10
63.649999999999984
20
-35.575000000000017
10
50.649999999999984
20
-35.575000000000017
42
-0.41421356237309503
10
50.149999999999991
20
-35.075000000000017
10
50.149999999999991
20
-22.075000000000024
42
-0.41421356237309503
10
50.649999999999984
20
-21.575000000000021
10
63.649999999999984
20
-21.575000000000024
42
-0.41421356237309503
10
64.149999999999977
20
-22.075000000000024
10
64.149999999999977
20
-35.075000000000017
42
-0.41421356237309503
0
LWPOLYLINE
5
131
100
AcDbEntity
8
0
100
AcDbPolyline
90
16
70
1
43
0.0
10
258.50000220537203
20
-18.999999761581432
10
258.50000220537203
20
-38.000000029802329
42
0.41421356237311324
10
259.00000220537203
20
-38.500000029802351
10
262.000002279878
20
-38.500000029802365
42
0.41421356237301699
10
262.500002279878
20
-38.000000029802344
10
262.500002279878
20
-36.000000000000036
42
0.4142135623730222
10
262.000002279878
20
-35.500000000000036
10
261.00000223517401
20
-35.50000000000005
42
-0.41421356237313928
10
260.50000223517401
20
-35.000000000000036
10
260.50000223517389
20
-21.999999791383829
42
-0.41421356237312623
10
261.00000223517401
20
-21.499999791383747
10
262.000002279878
20
-21.499999791383818
42
0.41421356237304302
10
262.500002279878
20
-20.999999791383829
10
262.500002279878
20
-18.999999761581432
42
0.41421356237301699
10
262.000002279878
20
-18.499999761581442
10
259.00000220537203
20
-18.499999761581396
42
0.41421356237311197
0
LWPOLYLINE
5
132
100
AcDbEntity
8
0
100
AcDbPolyline
90
12
70
1
43
0.0
10
66.031249999999972
20
-78.724999999999994
10
68.412499999999966
20
-78.724999999999994
42
-0.41421356237309503
10
68.912499999999966
20
-79.22499999999998
10
68.912499999999966
20
-92.224999999999994
42
-0.41421356237309503
10
68.412499999999966
20
-92.724999999999994
10
66.031249999999972
20
-92.724999999999994
10
55.41249999999998
20
-92.724999999999994
10
53.031249999999979
20
-92.725000000000009
42
-0.41421356237309503
10
52.531249999999979
20
-92.224999999999994
10
52.531249999999979
20
-79.22499999999998
42
-0.41421356237309503
10
53.031249999999979
20
-78.724999999999994
10
55.41249999999998
20
-78.724999999999994
0
LWPOLYLINE
5
133
100
AcDbEntity
8
0
100
AcDbPolyline
90
8
70
1
43
0.0
10
302.27499999999998
20
-60.174999999999983
10
302.27499999999998
20
-73.174999999999983
42
-0.41421356237309503
10
301.77499999999998
20
-73.674999999999983
10
288.77499999999998
20
-73.674999999999997
42
-0.41421356237309503
10
288.27499999999998
20
-73.174999999999983
10
288.27499999999998
20
-60.174999999999983
42
-0.41421356237309503
10
288.77499999999998
20
-59.674999999999983
10
301.77499999999998
20
-59.674999999999976
42
-0.41421356237309503
0
LWPOLYLINE
5
134
100
AcDbEntity
8
0
100
AcDbPolyline
90
32
70
1
43
0.0
10
30.369249999999994
20
-73.674999999999983
10
27.931249999999981
20
-73.674999999999983
10
26.837499999999981
20
-73.674999999999983
10
18.406249999999986
20
-73.674999999999983
10
14.931249999999983
20
-73.674999999999983
10
12.49324999999998
20
-73.674999999999983
10
6.493249999999982
20
-73.674999999999983
10
5.4062499999999858
20
-73.674999999999983
42
-0.41421356237309503
10
4.9062499999999858
20
-73.174999999999983
10
4.9062499999999876
20
-60.174999999999983
42
-0.41421356237309503
10
5.4062499999999858
20
-59.674999999999983
10
5.9932499999999811
20
-59.674999999999983
10
5.9932499999999838
20
-59.174999999999983
42
-0.41421356237309503
10
6.493249999999982
20
-58.67499999999999
10
12.49324999999998
20
-58.67499999999999
42
-0.41421356237309503
10
12.99324999999998
20
-59.174999999999983
10
12.99324999999998
20
-59.674999999999983
10
14.931249999999983
20
-59.674999999999983
10
18.406249999999986
20
-59.674999999999983
10
26.837499999999981
20
-59.674999999999983
10
27.931249999999981
20
-59.674999999999983
10
29.869249999999994
20
-59.674999999999983
10
29.869249999999994
20
-59.174999999999983
42
-0.41421356237309503
10
30.369249999999994
20
-58.67499999999999
10
36.369249999999994
20
-58.67499999999999
42
-0.41421356237309503
10
36.869249999999994
20
-59.174999999999983
10
36.869249999999994
20
-59.674999999999983
10
39.837499999999991
20
-59.674999999999997
42
-0.41421356237309503
10
40.337499999999977
20
-60.174999999999983
10
40.337499999999991
20
-73.174999999999983
42
-0.41421356237309503
10
39.837499999999991
20
-73.674999999999983
10
36.369249999999994
20
-73.674999999999983
0
LWPOLYLINE
5
135
100
AcDbEntity
8
0
100
AcDbPolyline
90
12
70
1
43
0.0
10
31.599999999999994
20
-78.724999999999994
10
42.218749999999979
20
-78.724999999999994
10
44.599999999999994
20
-78.724999999999994
42
-0.41421356237309503
10
45.099999999999987
20
-79.22499999999998
10
45.099999999999994
20
-92.224999999999994
42
-0.41421356237309503
10
44.599999999999994
20
-92.725000000000009
10
42.218749999999979
20
-92.724999999999994
10
31.599999999999994
20
-92.724999999999994
10
29.218749999999993
20
-92.725000000000009
42
-0.41421356237309503
10
28.718749999999993
20
-92.224999999999994
10
28.718749999999993
20
-79.22499999999998
42
-0.41421356237309503
10
29.218749999999993
20
-78.724999999999994
0
LWPOLYLINE
5
136
100
AcDbEntity
8
0
100
AcDbPolyline
90
16
70
1
43
0.0
10
286.50000247359287
20
-38.000000029802344
10
286.50000247359299
20
-18.999999761581432
42
0.41421356237312884
10
286.00000247359287
20
-18.499999761581339
10
283.00000239908701
20
-18.499999761581396
42
0.41421356237311197
10
282.50000239908701
20
-18.999999761581432
10
282.50000239908701
20
-20.999999791383843
42
0.41421356237314705
10
283.00000239908701
20
-21.499999791383853
10
284.00000244378998
20
-21.49999979138385
42
-0.41421356237310802
10
284.50000244378998
20
-21.999999791383843
10
284.50000244378998
20
-35.000000000000036
42
-0.41421356237308204
10
284.00000244378998
20
-35.500000000000036
10
283.00000239908701
20
-35.500000000000028
42
0.41421356237313667
10
282.50000239908701
20
-36.000000000000036
10
282.50000239908701
20
-38.000000029802344
42
0.41421356237314444
10
283.00000239908701
20
-38.500000029802365
10
286.00000247359287
20
-38.500000029802351
42
0.41421356237319651
0
LWPOLYLINE
5
137
100
AcDbEntity
8
0
100
AcDbPolyline
90
8
70
1
43
0.0
10
164.16249999999991
20
-41.125
10
164.16249999999991
20
-54.125000000000007
42
-0.41421356237309503
10
163.66249999999991
20
-54.625
10
150.66249999999991
20
-54.625000000000014
42
-0.41421356237309503
10
150.16249999999991
20
-54.125000000000007
10
150.16249999999991
20
-41.125
42
-0.41421356237309503
10
150.66249999999991
20
-40.625
10
163.66249999999991
20
-40.624999999999993
42
-0.41421356237309503
0
LWPOLYLINE
5
138
100
AcDbEntity
8
0
100
AcDbPolyline
90
8
70
1
43
0.0
10
264.17500000000007
20
-79.22499999999998
10
264.17500000000007
20
-92.224999999999994
42
-0.41421356237309503
10
263.67500000000001
20
-92.725000000000009
10
250.67500000000001
20
-92.725000000000009
42
-0.41421356237309503
10
250.17500000000001
20
-92.224999999999994
10
250.17500000000001
20
-79.22499999999998
42
-0.41421356237309503
10
250.67500000000001
20
-78.724999999999994
10
263.67500000000001
20
-78.72499999999998
42
-0.41421356237309503
0
LWPOLYLINE
5
139
100
AcDbEntity
8
0
100
AcDbPolyline
90
12
70
1
43
0.0
10
7.7874999999999828
20
-78.724999999999994
10
18.406249999999986
20
-78.724999999999994
10
20.787499999999991
20
-78.724999999999994
42
-0.41421356237309503
10
21.287499999999987
20
-79.22499999999998
10
21.287499999999998
20
-92.224999999999994
42
-0.41421356237309503
10
20.787499999999991
20
-92.725000000000009
10
18.406249999999986
20
-92.724999999999994
10
7.7874999999999828
20
-92.724999999999994
10
5.4062499999999858
20
-92.725000000000009
42
-0.41421356237309503
10
4.9062499999999858
20
-92.224999999999994
10
4.9062499999999876
20
-79.22499999999998
42
-0.41421356237309503
10
5.4062499999999858
20
-78.724999999999994
0
LWPOLYLINE
5
140
100
AcDbEntity
8
0
100
AcDbPolyline
90
8
70
1
43
0.0
10
54.912499999999994
20
-54.125000000000007
10
54.91249999999998
20
-41.125
42
-0.41421356237309503
10
55.41249999999998
20
-40.625
10
68.412499999999966
20
-40.625
42
-0.41421356237309503
10
68.912499999999966
20
-41.125
10
68.912499999999966
20
-54.125000000000007
42
-0.41421356237309503
10
68.412499999999966
20
-54.625
10
55.41249999999998
20
-54.624999999999993
42
-0.41421356237309503
0
LWPOLYLINE
5
141
100
AcDbEntity
8
0
100
AcDbPolyline
90
8
70
1
43
0.0
10
178.73750000000001
20
-60.174999999999983
42
-0.41421356237309503
10
179.23750000000001
20
-59.674999999999983
10
192.23750000000001
20
-59.674999999999976
42
-0.41421356237309503
10
192.73750000000004
20
-60.174999999999983
10
192.73750000000004
20
-73.174999999999983
42
-0.41421356237309503
10
192.23750000000001
20
-73.674999999999983
10
179.23750000000001
20
-73.674999999999997
42
-0.41421356237309503
10
178.73750000000001
20
-73.174999999999983
0
LWPOLYLINE
5
142
100
AcDbEntity
8
0
100
AcDbPolyline
90
32
70
1
43
0.0
10
269.72500000000002
20
-16.524999999999999
10
263.67500000000001
20
-16.524999999999999
10
260.19999999999999
20
-16.524999999999999
10
258.26199999999994
20
-16.524999999999999
10
258.26200000000006
20
-17.024999999999999
42
-0.41421356237309503
10
257.76200000000006
20
-17.524999999999999
10
251.76199999999994
20
-17.524999999999935
42
-0.41421356237309503
10
251.262
20
-17.024999999999999
10
251.262
20
-16.524999999999999
10
250.67500000000001
20
-16.525000000000006
42
-0.41421356237309503
10
250.17500000000001
20
-16.024999999999999
10
250.17500000000001
20
-3.0250000000000048
42
-0.41421356237309503
10
250.67500000000001
20
-2.5250000000000048
10
251.76199999999994
20
-2.5250000000000048
10
257.76200000000006
20
-2.5250000000000048
10
260.19999999999999
20
-2.5250000000000048
10
263.67500000000001
20
-2.5250000000000048
10
269.72500000000002
20
-2.5250000000000048
10
273.19999999999999
20
-2.5250000000000048
10
275.63800000000003
20
-2.5250000000000048
10
281.63799999999998
20
-2.5250000000000048
10
282.72500000000002
20
-2.5249999999999977
42
-0.4142135623730947
10
283.22500000000002
20
-3.0250000000000044
10
283.22500000000002
20
-16.024999999999999
42
-0.41421356237309503
10
282.72500000000002
20
-16.525000000000002
10
282.13799999999998
20
-16.524999999999999
10
282.13799999999998
20
-17.024999999999999
42
-0.41421356237309503
10
281.63799999999998
20
-17.524999999999999
10
275.63800000000003
20
-17.525000000000006
42
-0.41421356237309503
10
275.13799999999998
20
-17.024999999999999
10
275.13799999999998
20
-16.524999999999999
10
273.19999999999999
20
-16.524999999999999
0
LWPOLYLINE
5
143
100
AcDbEntity
8
0
100
AcDbPolyline
90
8
70
1
43
0.0
10
288.77499999999998
20
-92.724999999999966
42
-0.41421356237309503
10
288.27499999999998
20
-92.224999999999994
10
288.27499999999998
20
-79.22499999999998
42
-0.41421356237309503
10
288.77499999999998
20
-78.724999999999994
10
301.77499999999998
20
-78.72499999999998
42
-0.41421356237309503
10
302.27499999999998
20
-79.22499999999998
10
302.27499999999998
20
-92.224999999999994
42
-0.41421356237309503
10
301.77499999999998
20
-92.725000000000009
0
LWPOLYLINE
5
144
100
AcDbEntity
8
0
100
AcDbPolyline
90
8
70
1
43
0.0
10
301.77499999999998
20
-35.575000000000017
10
288.77499999999998
20
-35.575000000000031
42
-0.41421356237309503
10
288.27499999999998
20
-35.075000000000017
10
288.27499999999998
20
-22.075000000000024
42
-0.41421356237309503
10
288.77499999999998
20
-21.575000000000024
10
301.77499999999998
20
-21.575000000000017
42
-0.41421356237309503
10
302.27499999999998
20
-22.075000000000024
10
302.27499999999998
20
-35.075000000000017
42
-0.41421356237309503
0
LWPOLYLINE
5
145
100
AcDbEntity
8
0
100
AcDbPolyline
90
8
70
1
43
0.0
10
23.668749999999999
20
-54.125000000000021
10
23.668749999999996
20
-41.124999999999986
42
0.41421356237306639
10
23.168749999999999
20
-40.625
10
5.406249999999984
20
-40.625
42
0.41421356237308266
10
4.906250000000008
20
-41.125
10
4.9062499999999929
20
-54.125000000000021
42
0.41421356237308526
10
5.406249999999984
20
-54.624999999999993
10
23.168749999999992
20
-54.625
42
0.41421356237308721
0
LWPOLYLINE
5
146
100
AcDbEntity
8
0
100
AcDbPolyline
90
8
70
1
43
0.0
10
183.21250000000003
20
-41.125
10
183.21250000000003
20
-54.125000000000007
42
-0.41421356237309503
10
182.71250000000003
20
-54.625
10
169.71249999999992
20
-54.625000000000014
42
-0.41421356237309503
10
169.21249999999989
20
-54.125000000000007
10
169.21249999999989
20
-41.125
42
-0.41421356237309503
10
169.71249999999992
20
-40.625
10
182.71250000000003
20
-40.624999999999993
42
-0.41421356237309503
0
LWPOLYLINE
5
147
100
AcDbEntity
8
0
100
AcDbPolyline
90
8
70
1
43
0.0
10
111.27500000000001
20
-2.5249999999999977
42
-0.41421356237309503
10
111.77500000000002
20
-3.0250000000000044
10
111.77500000000002
20
-16.024999999999999
42
-0.41421356237309503
10
111.27500000000001
20
-16.525000000000002
10
98.274999999999991
20
-16.525000000000006
42
-0.41421356237309503
10
97.774999999999977
20
-16.024999999999999
10
97.774999999999977
20
-3.0250000000000048
42
-0.41421356237309503
10
98.274999999999991
20
-2.5250000000000048
0
LWPOLYLINE
5
148
100
AcDbEntity
8
0
100
AcDbPolyline
90
8
70
1
43
0.0
10
130.32499999999993
20
-2.5249999999999977
42
-0.41421356237309503
10
130.82499999999993
20
-3.0250000000000044
10
130.82499999999993
20
-16.024999999999999
42
-0.41421356237309503
10
130.32499999999993
20
-16.524999999999999
10
117.32500000000002
20
-16.525000000000006
42
-0.41421356237309503
10
116.82500000000002
20
-16.024999999999999
10
116.82500000000002
20
-3.0250000000000048
42
-0.41421356237309503
10
117.32500000000002
20
-2.5250000000000048
0
LWPOLYLINE
5
149
100
AcDbEntity
8
0
100
AcDbPolyline
90
8
70
1
43
0.0
10
107.80000000000001
20
-21.575000000000021
10
120.8
20
-21.575000000000017
42
-0.41421356237309503
10
121.30000000000001
20
-22.075000000000024
10
121.30000000000001
20
-35.075000000000017
42
-0.41421356237309503
10
120.8
20
-35.575000000000031
10
107.80000000000001
20
-35.575000000000031
42
-0.41421356237309503
10
107.30000000000001
20
-35.075000000000017
10
107.30000000000001
20
-22.075000000000024
42
-0.41421356237309503
0
LWPOLYLINE
5
150
100
AcDbEntity
8
0
100
AcDbPolyline
90
8
70
1
43
0.0
10
73.674999999999983
20
-3.0250000000000044
10
73.674999999999983
20
-16.024999999999999
42
-0.41421356237309503
10
73.174999999999983
20
-16.524999999999999
10
60.17499999999999
20
-16.524999999999999
42
-0.41421356237309503
10
59.674999999999997
20
-16.024999999999999
10
59.674999999999997
20
-3.0250000000000048
42
-0.41421356237309503
10
60.17499999999999
20
-2.5250000000000048
10
73.174999999999983
20
-2.5250000000000066
42
-0.41421356237309503
0
LWPOLYLINE
5
151
100
AcDbEntity
8
0
100
AcDbPolyline
90
8
70
1
43
0.0
10
302.27499999999998
20
-3.0250000000000044
10
302.27499999999998
20
-16.024999999999999
42
-0.41421356237309503
10
301.77499999999998
20
-16.525000000000002
10
288.77499999999998
20
-16.52499999999997
42
-0.41421356237309503
10
288.27499999999998
20
-16.024999999999999
10
288.27499999999998
20
-3.0250000000000048
42
-0.41421356237309503
10
288.77499999999998
20
-2.5250000000000048
10
301.77499999999998
20
-2.5249999999999977
42
-0.41421356237309503
0
LWPOLYLINE
5
152
100
AcDbEntity
8
0
100
AcDbPolyline
90
8
70
1
43
0.0
10
126.84999999999991
20
-21.575000000000024
10
139.84999999999991
20
-21.574999999999946
42
-0.41421356237309503
10
140.34999999999999
20
-22.075000000000024
10
140.34999999999994
20
-35.075000000000017
42
-0.41421356237309503
10
139.84999999999991
20
-35.575000000000031
10
126.84999999999991
20
-35.575000000000031
42
-0.41421356237309503
10
126.34999999999991
20
-35.075000000000017
10
126.34999999999991
20
-22.075000000000024
42
-0.41421356237309503
0
LWPOLYLINE
5
153
100
AcDbEntity
8
0
100
AcDbPolyline
90
8
70
1
43
0.0
10
21.287499999999987
20
-35.075000000000017
42
-0.41421356237309503
10
20.787499999999991
20
-35.575000000000017
10
7.7874999999999828
20
-35.575000000000017
42
-0.41421356237309503
10
7.2874999999999819
20
-35.075000000000017
10
7.2874999999999845
20
-22.075000000000024
42
-0.41421356237309503
10
7.7874999999999828
20
-21.575000000000024
10
20.787499999999991
20
-21.575000000000024
42
-0.41421356237309503
10
21.287499999999987
20
-22.075000000000024
0
LWPOLYLINE
5
154
100
AcDbEntity
8
0
100
AcDbPolyline
90
8
70
1
43
0.0
10
198.28749999999997
20
-73.674999999999997
42
-0.41421356237309503
10
197.78749999999997
20
-73.174999999999983
10
197.78749999999997
20
-60.174999999999983
42
-0.41421356237309503
10
198.28749999999997
20
-59.674999999999983
10
211.28749999999999
20
-59.674999999999976
42
-0.41421356237309503
10
211.78750000000002
20
-60.174999999999983
10
211.78750000000002
20
-73.174999999999983
42
-0.41421356237309503
10
211.28749999999999
20
-73.674999999999983
0
LWPOLYLINE
5
155
100
AcDbEntity
8
0
100
AcDbPolyline
90
8
70
1
43
0.0
10
136.375
20
-2.5250000000000048
10
149.37499999999994
20
-2.5249999999999266
42
-0.4142135623730947
10
149.875
20
-3.0250000000000044
10
149.87499999999994
20
-16.024999999999999
42
-0.41421356237309503
10
149.37499999999994
20
-16.524999999999999
10
136.375
20
-16.525000000000098
42
-0.41421356237309503
10
135.87499999999991
20
-16.024999999999999
10
135.875
20
-3.0250000000000048
42
-0.41421356237309503
0
LWPOLYLINE
5
156
100
AcDbEntity
8
0
100
AcDbPolyline
90
8
70
1
43
0.0
10
22.074999999999992
20
-16.524999999999999
42
-0.41421356237309503
10
21.574999999999992
20
-16.024999999999999
10
21.574999999999992
20
-3.0250000000000048
42
-0.41421356237309503
10
22.074999999999992
20
-2.5250000000000048
10
35.074999999999989
20
-2.5250000000000066
42
-0.41421356237309503
10
35.574999999999989
20
-3.0250000000000044
10
35.574999999999989
20
-16.024999999999999
42
-0.41421356237309503
10
35.074999999999989
20
-16.525000000000002
0
LWPOLYLINE
5
157
100
AcDbEntity
8
0
100
AcDbPolyline
90
8
70
1
43
0.0
10
45.387499999999996
20
-73.174999999999983
10
45.387499999999996
20
-60.174999999999983
42
-0.41421356237309503
10
45.887499999999989
20
-59.674999999999983
10
58.887499999999989
20
-59.674999999999983
42
-0.41421356237309503
10
59.387499999999989
20
-60.174999999999983
10
59.387499999999989
20
-73.174999999999983
42
-0.41421356237309503
10
58.887499999999989
20
-73.674999999999983
10
45.887499999999989
20
-73.674999999999983
42
-0.41421356237309503
0
LWPOLYLINE
5
158
100
AcDbEntity
8
0
100
AcDbPolyline
90
8
70
1
43
0.0
10
207.31250000000003
20
-54.125000000000007
10
207.3125
20
-41.125
42
-0.41421356237309503
10
207.8125
20
-40.625
10
220.8125
20
-40.624999999999993
42
-0.41421356237309503
10
221.3125
20
-41.125
10
221.3125
20
-54.125000000000007
42
-0.41421356237309503
10
220.8125
20
-54.625
10
207.8125
20
-54.624999999999979
42
-0.41421356237309503
0
LWPOLYLINE
5
159
100
AcDbEntity
8
0
100
AcDbPolyline
90
8
70
1
43
0.0
10
16.524999999999981
20
-16.024999999999999
42
-0.41421356237309503
10
16.024999999999984
20
-16.524999999999999
10
3.0249999999999844
20
-16.525000000000002
42
-0.41421356237309503
10
2.5249999999999839
20
-16.024999999999999
10
2.5249999999999844
20
-3.0250000000000048
42
-0.41421356237309503
10
3.0249999999999844
20
-2.5250000000000048
10
16.024999999999984
20
-2.5250000000000044
42
-0.41421356237309503
10
16.524999999999984
20
-3.0250000000000044
0
LWPOLYLINE
5
160
100
AcDbEntity
8
0
100
AcDbPolyline
90
8
70
1
43
0.0
10
31.599999999999994
20
-21.575000000000024
10
44.599999999999994
20
-21.575000000000031
42
-0.41421356237309503
10
45.09999999999998
20
-22.075000000000024
10
45.099999999999994
20
-35.075000000000017
42
-0.41421356237309503
10
44.599999999999994
20
-35.575000000000031
10
31.599999999999994
20
-35.575000000000017
42
-0.41421356237309503
10
31.099999999999994
20
-35.075000000000017
10
31.099999999999994
20
-22.075000000000024
42
-0.41421356237309503
0
LWPOLYLINE
5
161
100
AcDbEntity
8
0
100
AcDbPolyline
90
8
70
1
43
0.0
10
216.05000000000004
20
-35.575000000000031
10
203.05000000000004
20
-35.575000000000031
42
-0.41421356237309503
10
202.55000000000001
20
-35.075000000000017
10
202.55000000000001
20
-22.075000000000024
42
-0.41421356237309503
10
203.05000000000004
20
-21.575000000000021
10
216.05000000000004
20
-21.575000000000053
42
-0.41421356237309503
10
216.55000000000001
20
-22.075000000000024
10
216.55000000000004
20
-35.075000000000017
42
-0.41421356237309503
0
LWPOLYLINE
5
162
100
AcDbEntity
8
0
100
AcDbPolyline
90
8
70
1
43
0.0
10
101.7499999999999
20
-35.575000000000031
10
88.749999999999986
20
-35.575000000000031
42
-0.41421356237309503
10
88.249999999999972
20
-35.075000000000017
10
88.249999999999972
20
-22.075000000000024
42
-0.41421356237309503
10
88.749999999999986
20
-21.575000000000021
10
101.7499999999999
20
-21.575000000000017
42
-0.41421356237309503
10
102.24999999999991
20
-22.075000000000024
10
102.24999999999991
20
-35.075000000000017
42
-0.41421356237309503
0
LWPOLYLINE
5
163
100
AcDbEntity
8
0
100
AcDbPolyline
90
8
70
1
43
0.0
10
164.4499999999999
20
-22.075000000000024
42
-0.41421356237309503
10
164.9499999999999
20
-21.575000000000024
10
177.94999999999993
20
-21.575000000000017
42
-0.41421356237309503
10
178.44999999999996
20
-22.075000000000024
10
178.44999999999996
20
-35.075000000000017
42
-0.41421356237309503
10
177.94999999999993
20
-35.575000000000017
10
164.9499999999999
20
-35.575000000000031
42
-0.41421356237309503
10
164.4499999999999
20
-35.075000000000017
0
LWPOLYLINE
5
164
100
AcDbEntity
8
0
100
AcDbPolyline
90
8
70
1
43
0.0
10
197.49999999999994
20
-22.075000000000024
10
197.49999999999994
20
-35.075000000000017
42
-0.41421356237309503
10
196.99999999999991
20
-35.575000000000031
10
184.00000000000003
20
-35.575000000000031
42
-0.41421356237309503
10
183.5
20
-35.075000000000017
10
183.5
20
-22.075000000000024
42
-0.41421356237309503
10
184.00000000000003
20
-21.575000000000024
10
196.99999999999991
20
-21.575000000000017
42
-0.41421356237309503
0
LWPOLYLINE
5
165
100
AcDbEntity
8
0
100
AcDbPolyline
90
8
70
1
43
0.0
10
221.59999999999999
20
-22.075000000000024
42
-0.41421356237309503
10
222.10000000000002
20
-21.575000000000024
10
235.09999999999994
20
-21.575000000000017
42
-0.41421356237309503
10
235.59999999999997
20
-22.075000000000024
10
235.59999999999997
20
-35.075000000000017
42
-0.41421356237309503
10
235.09999999999994
20
-35.575000000000017
10
222.10000000000002
20
-35.575000000000031
42
-0.41421356237309503
10
221.59999999999999
20
-35.075000000000017
0
LWPOLYLINE
5
166
100
AcDbEntity
8
0
100
AcDbPolyline
90
8
70
1
43
0.0
10
193.52500000000003
20
-2.5250000000000048
10
206.52500000000003
20
-2.5250000000000332
42
-0.4142135623730947
10
207.02500000000001
20
-3.0250000000000044
10
207.02500000000003
20
-16.024999999999999
42
-0.41421356237309503
10
206.52500000000003
20
-16.525000000000002
10
193.52500000000003
20
-16.525000000000006
42
-0.41421356237309503
10
193.02500000000003
20
-16.024999999999999
10
193.02500000000003
20
-3.0250000000000048
42
-0.41421356237309503
0
LWPOLYLINE
5
167
100
AcDbEntity
8
0
100
AcDbPolyline
90
12
70
1
43
0.0
10
216.83750000000001
20
-92.224999999999994
10
216.83750000000001
20
-79.22499999999998
42
-0.41421356237309503
10
217.33750000000001
20
-78.724999999999994
10
219.71875
20
-78.724999999999994
10
230.33750000000001
20
-78.724999999999994
10
232.71875
20
-78.72499999999998
42
-0.41421356237309503
10
233.21875000000003
20
-79.22499999999998
10
233.21875
20
-92.224999999999994
42
-0.41421356237309503
10
232.71875
20
-92.724999999999994
10
230.33750000000001
20
-92.724999999999994
10
219.71875
20
-92.724999999999994
10
217.33750000000001
20
-92.725000000000009
42
-0.41421356237309503
0
LWPOLYLINE
5
168
100
AcDbEntity
8
0
100
AcDbPolyline
90
8
70
1
43
0.0
10
212.57499999999999
20
-16.525000000000006
42
-0.41421356237309503
10
212.07499999999999
20
-16.024999999999999
10
212.07499999999999
20
-3.0250000000000048
42
-0.41421356237309503
10
212.57499999999999
20
-2.5250000000000048
10
225.57499999999993
20
-2.5249999999999266
42
-0.4142135623730947
10
226.07500000000002
20
-3.0250000000000044
10
226.07499999999993
20
-16.024999999999999
42
-0.41421356237309503
10
225.57499999999993
20
-16.525000000000002
0
LWPOLYLINE
5
169
100
AcDbEntity
8
0
100
AcDbPolyline
90
8
70
1
43
0.0
10
187.97499999999997
20
-16.024999999999999
42
-0.41421356237309503
10
187.47499999999997
20
-16.525000000000002
10
174.47499999999994
20
-16.525000000000006
42
-0.41421356237309503
10
173.97499999999994
20
-16.024999999999999
10
173.97499999999994
20
-3.0250000000000048
42
-0.41421356237309503
10
174.47499999999994
20
-2.5250000000000048
10
187.47499999999997
20
-2.5249999999999977
42
-0.41421356237309503
10
187.97499999999997
20
-3.0250000000000044
0
LWPOLYLINE
5
170
100
AcDbEntity
8
0
100
AcDbPolyline
90
8
70
1
43
0.0
10
216.83750000000001
20
-60.174999999999983
42
-0.41421356237309503
10
217.33750000000001
20
-59.674999999999983
10
230.33750000000001
20
-59.674999999999976
42
-0.41421356237309503
10
230.83750000000003
20
-60.174999999999983
10
230.83750000000003
20
-73.174999999999983
42
-0.41421356237309503
10
230.33750000000001
20
-73.674999999999983
10
217.33750000000001
20
-73.674999999999997
42
-0.41421356237309503
10
216.83750000000001
20
-73.174999999999983
0
ENDSEC
0
SECTION
2
OBJECTS
0
DICTIONARY
5
C
100
AcDbDictionary
3
ACAD_GROUP
350
D
3
ACAD_MLINESTYLE
350
17
0
DICTIONARY
5
D
100
AcDbDictionary
0
DICTIONARY
5
1A
330
C
100
AcDbDictionary
0
DICTIONARY
5
17
100
AcDbDictionary
0
ENDSEC
0
EOF
